Bm         A6         Bm         A6
|--------------------------------------------
|--------------------------------------------
|--------------------------------------------
|--------------------------------------------
|----0----------0----------0----------0------
|--0---4-2----0---4-2----0---4-2----0---4-2--
 
Bm           F#m         Bm             F#m 
  I give her all my love   That's all I do 
Bm           F#m         D                E7
  And if you saw my love   You'd love her too
       A6 
I love her 
 
Bm             F#m         Bm          F#m 
  She gives me everything    And tenderly
Bm            F#m          D               E7
  The kiss my lover brings   She brings to me 
  A6 
I love her 
 
F#m           E     F#m           C#m 
  A love like ours    Could never die
F#m          C#m            E7
  As long as I     Have you near me

Bm               F#m              Bm            F#m
  Bright are the stars that shine   Dark is the sky 
Bm            F#m            D            E7
  I know this love of mine     will never die
      A6 
and I love her 
 
SOLO 
Cm  Gm  Cm  Gm  Cm  Gm  Eb  F7  A#6 🎶
|---------------------------------------
|---------------------------------------
|-----203----20----203-30---------------
|---01-----01----01------10-----0-30----
|3-3------3-----3----------3--------313-
|----------------------------113--------
 
Cm               Gm               Cm             Gm 
  Bright are the stars that shine    Dark is the sky
Cm            Gm              D#           F7
  I know this love of mine      Will never die 
       A#6
And I love her 
 
Cm   Gm   Cm   G
|--------------------------------
|--------------------------------
|--------------------------------
|--------------------------------
|----1-0--------1-0--------1-0---
|--1-----3----1-----3----1-----3-